Привет, гитарист!

Держи подарок от сайта Muzykantam.net - мини-курс по гитаре

Забрать курс!

The Beatles - Come Together, аккорды

Просмотров: 1432
1 Звезда2 Звезды3 Звезды4 Звезды5 Звезд
Загрузка...
Слушать онлайн: "Come Together"
Бой: VvVv
Выбрать тональность

Это главный риф в песне:
e--------------------------------|
B--------------------------------|
G--------------10----------------|
D-0--0---------10--12------------|    
A-------10/12--------------------|
E--------------------------------|

Примечание: Здесь играйте боем вниз
e---------------------------
B---------------------------
G---------------------------
D-7--7--9--9----------------  
A-5--5--5--5----------------
E---------------------------

       
D 
here come old flat top, he come grooving up slowly,
D 
he got joo joo eyeball, he one Holy roller
      A                        g#
he got hair down to his knee          ****
G
got to be a joker he just do what he please


****
e--------------|
B--------------|
G--------------|
D--------------|  
A--7--6--6--5--|
E--5--4--4--3--|

    -----
    Припев:
        Hm              G
    come together, right now,  over me
    -----

Риф:

here come old flat top, he come grooving up slowly
he got joo joo eyeball, he one Holy roller
he got hair down to his knee
got to be a joker he just do what he please

Риф:

he wair no shoe shine he got toe jam football
he got monkey finger he shoot co-ca cola
he say i know you, you know me
one thing i can tell you is you got to be free

    Припев...

he bag big production he got wal-rus gumboot
he got О-no sideboard he one spinal cracker
he got feet down below his knee
hold you in his armchair you can feel his disease

    Припев...

he roller coaster he got early warning
he got muddy water he one Mo-jo filter
he say one and one and one is three
got to be good looking cause he so hard to see

    Припев...

Если Вы обнаружили ошибку, просьба сообщить
Вы можете пропустить чтение записи и оставить комментарий. Размещение ссылок запрещено.

Оставить комментарий

Лимит времени истёк. Пожалуйста, перезагрузите CAPTCHA.