Привет, гитарист!

Держи подарок от сайта Muzykantam.net - мини-курс по гитаре

Забрать курс!

The Beatles - And I Love Her, аккорды

Просмотров: 916
1 Звезда2 Звезды3 Звезды4 Звезды5 Звезд
Загрузка...
Слушать онлайн: "And I Love Her"
Бой: V_V^V^V^
Выбрать тональность

F#m        C#m           F#m           C#m
I give her all my love    That`s all I do

F#m        C#m             A             B7
And if you saw my love    You`d love her too

      E
And I love her

   F#m                          C#m
-|----------9--------------9------------9-----------9----------
-|------10-----10------10-----10-----9-----9-----9-----9-------
-|--11-------------11-------------9-----------9----------------
---------------------------------------------------
---------------------------------------------------
---------------------------------------------------
          She    gives  me       every     thing

   F#m                          C#m
-|----------9--------------9------------9-----------9----------
-|------10-----10------10-----10-----9-----9-----9-----9-------
-|--11-------------11-------------9-----------9----------------
---------------------------------------------------
---------------------------------------------------
---------------------------------------------------
          And     tender        ly

   F#m                          C#m
-|----------9--------------9------------9-----------9----------
-|------10-----10------10-----10-----9-----9-----9-----9-------
-|--11-------------11-------------9-----------9----------------
---------------------------------------------------
---------------------------------------------------
---------------------------------------------------
          The     kiss my       lover     brings

   A                           B7
-|---------9-------------9--------------11---------------------
-|-----10-----10-----10-----10------10------10-----------------
-|--9-------------9-------------11-----------------------------
---------------------------------------------------
---------------------------------------------------
---------------------------------------------------
         She    brings to      me

                   E6
-|----------11------------9-----------9-----------9------------
-|------10------10-----9-----9-----9-----9-----9-----9---------
-|--11--------------9-----------9-----------9-----------9------
---------------------------------------------------
---------------------------------------------------
---------------------------------------------------
      And  I  love    her

C#m          B      C#m        G#m
A love like ours    could never die
C#m       G#m            B7
As long as I   have you near me

Verse 3:
F#m             C#m               F#m         C#m
Bright are the stars that shine   Dark is the sky

F#m         C#m             A          B7
I know this love of mine   Will never die
        E
And I love her

Verse 4: (guitar plays arpeggios shown for verse 2, one fret higher)
Gm              Dm                Gm          Dm
Bright are the stars that shine   Dark is the sky

Gm          Dm              Bb         C7
I know this love of mine   Will never die

       F
And I love her

            Gm               F              Gm             D
|----------------------------------------------------------------|
|----------------------------------------------------------------|
|----------------------------------------------------------------|
|----------------------------------------------------------------|
|------8--7--5---------8--7--5---------8--7--5--------8--7--5----|
|---8---------------8---------------8--------------8-------------|

Если Вы обнаружили ошибку, просьба сообщить
Вы можете пропустить чтение записи и оставить комментарий. Размещение ссылок запрещено.

Оставить комментарий

Лимит времени истёк. Пожалуйста, перезагрузите CAPTCHA.