Привет, гитарист!

Держи подарок от сайта Muzykantam.net - мини-курс по гитаре

Забрать курс!

Noize mc - Жвачка, аккорды

Просмотров: 1198
1 Звезда2 Звезды3 Звезды4 Звезды5 Звезд
Загрузка...
Слушать онлайн: "Жвачка"
Бой: V___V__^_^_^V^V^ (в быстром темпе)
Выбрать тональность

E|--------------------------------------------------------
H|----5---5---5---5---5-----------------------------------
G|--------------------------1----1----3----3----3-----3---
D|--------------------------------------------------------
A|---4---4---4---4---4------------------------------------
E|-------------------------0----0----0----0----0-----4----

  -------------------------------------------------------|
  ---------------------------------------------------4---|
  --3-----3----3----3-----3-----3----3----3--------------|
  -------------------------------------------------------|
  -------------------------------------------------------|
  -4-----4----4----4-----4-----4----4-----4-----4--------|

   -----
   Припев:
   G#m              C#m                             E
         Память о тебе, как жвачка в волосах
                              G#m
   И видимо слишком глубоко в башке застряли корни.
                   C#m                                    E
   Холодно в аду, нечем дышать на небесах
                               G#m
   Вселенной больше нет, но я о ней зачем-то помню. 
   -----

G#5                                                          G#5/F5
Мне бы этот прибор с яркой вспышкой из фильма "Люди в черном"
G#5                                                           A5   G#5/F5
Я бы выкрутил реле на максимум и вообще все подчистую стер бы.
Очутился бы в незнакомом месте, ничего не понимая. Не зная, кто я
Лишившись потребности глушить препаратами фантомы и боли.

Я бродил бы бесцельно по городу, ставшему вдруг спасительно чужим
Не чувствуя зажимов в подреберье, свободный как выпущенный джин.
Которому нет больше нужды рвать на себе волосы, пытаясь осуществить
Невыполнимые желания собственного внутреннего голоса.

           E
Я написал бы себе записку с просьбой не пытаться узнать о прошлом
           G#m
Во избежание возможных рисков наврал бы в ней сам себе безбожно.
   E
Если бы я кого-нибудь встретил, кто напомнил бы мне о забытом
       G#m
Я нажал бы еще на раз на кнопку. Это так просто: "вкл" "выкл".


Припев..

Если Вы обнаружили ошибку, просьба сообщить
Вы можете пропустить чтение записи и оставить комментарий. Размещение ссылок запрещено.

Оставить комментарий

Лимит времени истёк. Пожалуйста, перезагрузите CAPTCHA.