Привет, гитарист!

Держи подарок от сайта Muzykantam.net - мини-курс по гитаре

Забрать курс!

Операция "Ы" - Постой, паровоз, аккорды

Просмотров: 1476
1 Звезда2 Звезды3 Звезды4 Звезды5 Звезд
Загрузка...
Слушать онлайн: "Постой, паровоз"
Бой: БV
Выбрать тональность
   Am       Dm         E       Am
Постой, паровоз, не стучите, колеса!
   C                     E
Кондуктор, нажми на тормоза!
    Am                    A         Dm
Я к маменьке родной, с последним приветом...
   Am      E            Am
Спешу, показаться на глаза!

Не жди меня, мама, хорошего сына...
Твой сын не такой, как был вчера!
Меня засосала опасная трясина,
И жизнь моя вечная игра!

Постой, паровоз, не стучите колеса!
Есть время взглянуть судьбе в глаза...
Пока еще не поздно нам сделать... Остановку, а?
Кондуктор, нажми на тормоза!!!

Постой, паровоз, не стучите, колеса,
Кондуктор, нажми на тормоза.
Я к маменьке родной с последним приветом
Спешу показаться на глаза

Соло:

1) -0-0-5-3-1-------0---0-----------
2) -----------3-1-0---3-------------
3) -----------------------2---------

1) -3-3---0-3---8-7-5-4--0-8-7-8-7-5-
2) -----1-5--------------------------
3) ----------------------------------

1) -0-5-3-5-3-1--1-0-3-1-0-----------
2) ------------------------3-0-1-----
3) ------------------------------2---
Если Вы обнаружили ошибку, просьба сообщить
Вы можете пропустить чтение записи и оставить комментарий. Размещение ссылок запрещено.

Оставить комментарий

Лимит времени истёк. Пожалуйста, перезагрузите CAPTCHA.