Привет, гитарист!

Держи подарок от сайта Muzykantam.net - мини-курс по гитаре

Забрать курс!

Просто мечта одна была, аккорды

Просмотров: 1639
1 Звезда2 Звезды3 Звезды4 Звезды5 Звезд
Загрузка...
Слушать онлайн: "Просто мечта одна была"
Бой на припеве: V___V__^_^_^V^V^
Выбрать тональность
Перебор такой:

(Проигрыш)
Am
|---------------------------------------------------|
|---------1-----0-----1-----3-----1----0-----1------|
|------2-----2-----2-----2-----2-----2----2-----2---|
|---------------------------------------------------|
|---0-----------------------------------------------|
|---------------------------------------------------|

F
|---------------------------------------------------|
|---------1-----0-----1-----3-----1----0-----1------|
|------2-----2-----2-----2-----2-----2----2-----2---|
|---3-----------------------------------------------|
|---------------------------------------------------|
|---------------------------------------------------|

G
|----------------3-------1-----0--------------------|
|---------0----------0------0---------3-------------|
|------0-----0---------------------0------0---------|
|---0-----------------------------------------------|
|---------------------------------------------------|
|---------------------------------------------------|

Am
|---------------------------------------------------|
|---------1-----0-----1-----3-----1----0-----1------|
|------2-----2-----2-----2-----2-----2----2-----2---|
|---------------------------------------------------|
|---0-----------------------------------------------|
|---------------------------------------------------|

На протяжении всей песни "Мечта" перебор такой же

   Am
1.   В полумраке на столе, бумаги лист лежит
F
  Дрожь в руке и след карандаша зачем лежит
G
  Не догнать его потока мутного реки
Am
  И в ушах и сердце разрываю на куски

Солнце пляшет, мы с тобой вдвоём наедине
Освежится в речке бурной предложила мне
Я не знал что так бывает отошёл всего на миг
Было поздно я услышал только крик

F                  G
  Не помогут слезы   не вернуть обратно
Я не буду плакать даже если надо

    ------
    Припев: Боем
    Am                  F                    G
    Просто мечта одна была чтобы просто ты жила
                          E                  Am
    И чтобы жизнь твоя дотла не сгорела никогда
                           F                     G
    На зло судьбы твоей каприз все желанья не сбылись
                    E
    Те мечты твои о том как постороим дом
    F                        G
      В котором будем жить и ты и я (и ты и я)
    F                      G
      В котором всё и даже воздух для тебя(аа)
    ------

(Проигрыш)

Далее опять перебор:

2. День четвёртый КПЗ, решётка, темнота
Молодой сержант и беспонтовые слова
Мне не надо объяснять я понял всё без слов
Просто это наказанье за мою любовь
Просто с первых дней твой папа не любил меня
И не раз меня встречали папины друзья
А теперь судья знакомый папин как на зло
Что сказать судьбе в глаза ну чтож не повезло

Не помогут слезы не вернуть обратно
Я не буду плакать даже если надо

    Припев..
В припеве на последних двух строчка (в котором будем жить и ты и я..) на аккордах просто проводим по одному разу рукой сверху вниз.
Если Вы обнаружили ошибку, просьба сообщить
Вы можете пропустить чтение записи и оставить комментарий. Размещение ссылок запрещено.

Оставить комментарий

Лимит времени истёк. Пожалуйста, перезагрузите CAPTCHA.