Привет, гитарист!

Держи подарок от сайта Muzykantam.net - мини-курс по гитаре

Забрать курс!

Фактор-2 - Забери меня, аккорды

Просмотров: 1674
1 Звезда2 Звезды3 Звезды4 Звезды5 Звезд
Загрузка...
Слушать онлайн: "Забери меня"
Перебор: Б3231323
Выбрать тональность
Соло в указанном месте:
1|---------------------------------------------------|
2|--------------0-------------0----------------------|
3|----0-2--------0----0-1------0----0----------------|
4|--2----------------2-------------2-4--2----4-542---|
5|---------------------------------------------------|
6|---------------------------------------------------|

1|-----------------------------02320-----------------|
2|-----------------------------------1--010----0-----|
3|-------00--222-455-42-2h4-----------------20-------|
4|--22-4---------------------------------------------|
5|---------------------------------------------------|
6|---------------------------------------------------|

Em     Am             C
  Этот день сгорел дотла
       Em
Пеплом падает листва
          Am   Hm          Em
И ночь зажгла,   огни в столице

Страстно небу отдаюсь
И щекой к нему прижмусь
Сорву звезду, в ночной теплице

    ------
    Припев:
    Em         Am  Hm         Em
      Забери меня,   забери меня
    Забери меня,  забери меня
    ------

Обнаженная луна
Словно озеро без дна
Без берегов и без секретов

За невидимой чертой,
становлюсь самим собой
И без любви, и без ответов

    ------
    Припев..
    ------

------
Соло..
------

  ------
  Припев..
  ------
Если Вы обнаружили ошибку, просьба сообщить
Вы можете пропустить чтение записи и оставить комментарий. Размещение ссылок запрещено.

Оставить комментарий

Лимит времени истёк. Пожалуйста, перезагрузите CAPTCHA.