Привет, гитарист!

Держи подарок от сайта Muzykantam.net - мини-курс по гитаре

Забрать курс!

Gerard way - No Shows, аккорды

Просмотров: 678
1 Звезда2 Звезды3 Звезды4 Звезды5 Звезд
Загрузка...
Бой: V^_^V^_^
Выбрать тональность

E                                                      E7
Been weeks I been living and your smiles are giving me all types of treble
     E                                                 E7
Weak knees I been given and those nights are making me star-struck and metal

    -----
    Припев:
    E
    Stay free
    H     A
    Don’t go
    A                 H
    Cuz we don’t need no
    ----

E                                            E7
Try to be living as your vice and can you be my type?
    E                                            E7
Cuz we need to be given a good life and can I be your type of metal?

    -----
    Припев:
    E
    Stay free
    H     A
    Don’t go
    A                 H  E
    Cuz we don’t need no shows

             A    H  E
    We don’t need no shows
             A    H  E
    We don’t need no shows
    -----

E                                       E7
Pay for the devil a plug to a pedal I’m your type
E                                                      E7
Weak knees from the level I’m sick from the treble I’m your type of metal

    -----
    Припев:
         A     H     A
    Weak knees don’t go
                 A    H  E
    Cuz we don’t need no shows
    -----

She’s sweet as battery, man I got nothin, You kiss an enemy’s hands, I got nothing
e---------------------------------------|-----------------------------------------|
B---------------------------------------|-----------------------------------------|
G---------------------------------------|-----------------------------------------|
D---------------------------------------|---------------------------1--X8---------|
A---------------------------------------|-----------------------------------------|
E-0--X16--------------------------------|-5--X8-----------------------------------|


We got an animal band and that’s something, It’s not love if it’s just fucking
e---------------------------------------|-----------------------------------------|
B---------------------------------------|-----------------------------------------|
G---------------------------------------|-----------------------------------------|
D---------------------------------------|---------------------------1--X8---------|
A---------------------------------------|-----------------------------------------|
E-0--X16--------------------------------|-5--X8-----------------------------------|
         
         A    H  C#m
We don’t need no shows,
         A    H  C#m
We don’t need no shows,
         A    H  C#m
We don’t need no shows,
         A    H  E
We don’t need no shows.

Если Вы обнаружили ошибку, просьба сообщить
Вы можете пропустить чтение записи и оставить комментарий. Размещение ссылок запрещено.

Оставить комментарий

Лимит времени истёк. Пожалуйста, перезагрузите CAPTCHA.