Привет, гитарист!

Держи подарок от сайта Muzykantam.net - мини-курс по гитаре

Забрать курс!

Би-2 - Муза, аккорды

Просмотров: 443
1 Звезда2 Звезды3 Звезды4 Звезды5 Звезд
Загрузка...
Бой: V_V^_^V^
Выбрать тональность
Вступление:
  Gm
1|------10------------------------------------------
2|--8--------8----11-10-11-10-11-10--8--------------
3|--------------------------------------------------
  Gm
1|------10------------------------------------------
2|--8--------8----11-10-11-10-11-10--8--------------
3|--------------------------------------------------
  Cm
1|------10------------------------------------------
2|--8--------8----13-11-13-11-13-11-----------------
3|--------------------------------------------------
  D#                           Gm
1|--------------------------------------------------
2|------11--10-11-10-11-10-----11-10-11-10-11-10--8-
3|--------------------------------------------------


       Gm
Я буду только с тобой
Откровенным и честным
Ведь ты наизусть
Знаешь все мои песни
  Cm
Целуешь и вертишь
   B             Gm
Слова на моем языке

Я терпеливо сносил
И прощал все капризы
Сколько вырванных лет
Я тобой не был признан
И бессмысленно дальше
Границу держать на замке

    ==========
    ПРИПЕВ:

        Gm
    Моя муза
             Gm
    Из евросоюза
                  Cm
    Возьми меня в плен
                  B    Gm
    Открой мне шенген
    ==========

Я помню каждую мелочь
Сладкий трепет объятий
Мне хотелось сорвать
Твое мокрое платье
И отчаянной дерзостью
Сердцем твоим завладеть

И твоя неприступность
Череда настроений
Держит крепко за горло
Мое вдохновенье
В этом глянцевом мире
Джульетта должна умереть

    ======
    ПРИПЕВ..
    ======
Если Вы обнаружили ошибку, просьба сообщить
Вы можете пропустить чтение записи и оставить комментарий. Размещение ссылок запрещено.

Оставить комментарий

Лимит времени истёк. Пожалуйста, перезагрузите CAPTCHA.