Привет, гитарист!

Держи подарок от сайта Muzykantam.net - мини-курс по гитаре

Забрать курс!

Би-2 - Девушки, аккорды

Просмотров: 610
1 Звезда2 Звезды3 Звезды4 Звезды5 Звезд
Загрузка...
Бой: v^V^
Выбрать тональность
Вступление:
Em

Табулатура во врем вступления:
1|--3-----6-----0-------------

1|--3-----6-----0-------------

1|--3-3-2-2-0------------------
2|------------0----------------
3|-----------------------------

1|--3-3-2-2-0------------------
2|------------0----------------
3|-----------------------------

1|--3-3-2-2-0---------0--------
2|------------0-----0---0------
3|-----------------------------

1|--3-3-2-2-0------------------
2|------------0----------------
3|-----------------------------

Em
Эй, опять мой стиль
Распался в пыль,
Я слишком выпил.
C                   Em
Я, я - худший из мужчин,
               F#
Так долго был один
                Am
И мне нельзя за руль.
C                   Em
Ты прости меня, прости.
                F#
Застрял на полпути
               Am
Наш первый поцелуй.

    ==========
    ПРИПЕВ:
    
    Em
    Девушки теряют терпение,
    C
    Девушки не любят эгоистов.
    Am
    Девушки не верят в везение.
    D
    С ними надо действовать быстро.
    ==========
    
Эй, какой соблазн.
Отличный план
Накрылся тазом
Я смотрю в твои глаза,
А вижу то, что за
Сплошную целину
Ты, ты лучшая из всех,
Но разве это грех
Любить тебя одну?

    ======
    ПРИПЕВ..
    ======
    
    Проигрыш (табы из вступления)
    
    ======
    ПРИПЕВ..
    ======
    
    ==========
    Девушки теряют терпение,
    Девушки выходят на площадь.
    Девушки не верят в везение,
    С девушками надо быть проще.
    ==========
Если Вы обнаружили ошибку, просьба сообщить
Вы можете пропустить чтение записи и оставить комментарий. Размещение ссылок запрещено.

Оставить комментарий

Лимит времени истёк. Пожалуйста, перезагрузите CAPTCHA.