Привет, гитарист!

Держи подарок от сайта Muzykantam.net - мини-курс по гитаре

Забрать курс!

Агата Кристи - Я буду там, аккорды

Просмотров: 937
1 Звезда2 Звезды3 Звезды4 Звезды5 Звезд
Загрузка...
Бой: V_V^_^V^
Выбрать тональность
Вступление:
              Hm          Hm         C7             Hm
1|----------------------------------------------------
2|----------------------------------------------------
3|-----------2----------22------------------------0---
4|-------0-0---4----0-0----4--44220----0------------4-
5|--2-2----------22-----------------43---43--0033-----
6|----------------------------------------------------

                    C7     F#          Hm
1|-----------------------332----10--9--7
2|-------------553321--3--------9---8---
3|-----------1--------------------------
4|-------004----------------------------
5|--2-2---------------------------------
6|--------------------------------------

              Hm
До свиданья малыш
              Hm
Я упал,а ты летишь
              C7
Ну и ладно улетай
  Am
В рай

           Hm
Ничего-ничего
             Hm
Мы увидимся еще
            C7
Я и сам,я и сам
         F#
Назло врагам
     Hm
Буду там


После куплета:
   Hm         Hm          C7  C7          Hm      Hm
1|----------------------------------------------------
2|----------------------------------------------------
3|----------22--------------------------0----------1--
4|--4----00----4---44220----0-------------4----004----
5|----22-----------------43---43---0033-----22--------
6|----------------------------------------------------

                Hm  F#          Hm
1|------32--------332---10--9---7-------
2|----3----321--1-------9---8-----------
3|--1-----------------------------------
4|--------------------------------------
5|--------------------------------------
6|--------------------------------------
Если Вы обнаружили ошибку, просьба сообщить
Вы можете пропустить чтение записи и оставить комментарий. Размещение ссылок запрещено.

Оставить комментарий

Лимит времени истёк. Пожалуйста, перезагрузите CAPTCHA.