Привет, гитарист!

Держи подарок от сайта Muzykantam.net - мини-курс по гитаре

Забрать курс!

Агата Кристи - Viva Kalman, аккорды

Просмотров: 887
1 Звезда2 Звезды3 Звезды4 Звезды5 Звезд
Загрузка...
Бой: V_V^_^V^
Выбрать тональность
Gm
Пегой луной наступает вечер
Лысый швейцар зажигает свечи
Cm
Пудрится цирк в ожиданьи встречи
    Gm     D  Gm
С голодною толпой!

И через миг на арене алой
Вырастет мир на утеху залу
Белый маньяк затрясут устало
Битой головой!

    Cm           D#
    Белый клоун, белый мученик
    Cm         D#
    Ради смеха пьяно-жгучего
    Cm        Dbm5-        D
    Будет издеваться над собой!

Вечером здесь у него заботы
Ведь униженье - его работа
Но посмеётся последним наш
Невидимый герой!

Проигрыш:
   Gm
1|-------------------------------------------
2|-8-7-6-5--4-3--2-3-------------------------
3|-------------------------------------------
                  Cm
1|-------------------------------------------
2|-8-7-6-5--4-3--0-1-------------------------
3|-------------------------------------------
   Cm
1|-8-7-6-5--4-3--2-3-------------------------
2|-------------------------------------------
3|-------------------------------------------
       D#        D  
1|-2-3-5-----4-5-10--------------------------
2|-------------------------------------------
3|-------------------------------------------

И еще раз

1|-------------------------------------------
2|-8-7-6-5--4-3--2-3-------------------------
3|-------------------------------------------

1|-------------------------------------------
2|-8-7-6-5--4-3--0-1-------------------------
3|-------------------------------------------

1|-8-7-6-5--4-3--2-3-------------------------
2|-------------------------------------------
3|-------------------------------------------

1|-2-3-5-----4-5-10--------------------------
2|-------------------------------------------
3|-------------------------------------------

+

1|------------9-10-11-10-9-10-------9-10-13-10-14-10---
2|-4-3---------------------------3---------------------
3|-----------------------------------------------------

Но в час, когда полночь погасит краски,
Бывший Пьеро поменяет маску
Новый из тех, кто над ним смеялся
Превратится в гной!

Клоун не зря помнит эти лица
Вечером - шут, а теперь - убийца
В душном трактире он отрешиться
С пьяною ордой!

    В кабаке с визгливой скрипкой
    За столом от грязи липким
    Будет хохотать он сатаной!

Завтра опять у него заботы
Ведь униженье - его работа
Но посмеётся последним наш
Невидимый герой!


    Cm     D#
4|-4-5-7-5-4-5-------------------------------
5|-------------6-5-3-------------------------
6|-------------------------------------------
    Cm     D#
4|-4-5-7-5-4-5-------------------------------
5|-------------6-5-3-------------------------
6|-------------------------------------------
   Cm       Dbm5-    D
4|-4-5-7-5------5--8-7-----------------------
5|----------4-7------------------------------
6|-------------------------------------------

Кто изгибал на арене спину,
Тот испытал, что такое - Сила
Пой же, цыган, зажигай-ка милый
Белую ты кровь!

Конец:
6|-3---3-3----------------
Если Вы обнаружили ошибку, просьба сообщить
Вы можете пропустить чтение записи и оставить комментарий. Размещение ссылок запрещено.

Оставить комментарий

Лимит времени истёк. Пожалуйста, перезагрузите CAPTCHA.