Привет, гитарист!

Держи подарок от сайта Muzykantam.net - мини-курс по гитаре

Забрать курс!

Агата Кристи - Танго с дельтапланом, аккорды

Просмотров: 688
1 Звезда2 Звезды3 Звезды4 Звезды5 Звезд
Загрузка...
Бой: V^V^
Выбрать тональность
Вступление:
  Am        E        G        Cm
1|------------------------------------------
2|-5-5-5-5--3-3-3-3--3-3-3-3--4-4-4-4-------
3|------------------------------------------
   Am       E         G           E
1|------------------------------------------
2|-5-5-5-5--3-3-3-3---0---1-0---1-0---------
3|----------------------2-----2-------------

1|------------------------------------------
2|------------------------------------------
3|-------5--4--2----------------------------
4|-3-2-3------------------------------------

    Am
Ах, мой голубой дельтаплан,
Стрелою пронзает туман.
 Cm G             Am    E
Его я обожаю, как брата.
   Am
Свободен и легок полет
Сам летчик и сам самолет
    Cm     G                Am
Я - птичка в облаке розовой ваты.

    **************************
    Эти табы играются во время этого припева
    1|------------------------------------------ |
    2|---3-6--3---------1-5--1------------------ | x2
    3|-3--------3-----2--------2---------------- |

   B            Am
    Но все же ночною порой
   B             Am
    Мне снится конвой
          E
    И солдаты!
    **************************
    
  Am
3|--5-2--(повтор этих двух нот)------------------------
Оставь, не жалей ни о чем
Летай, пока горячо
  Cm      G              Am
2|--4-1-4-1---4-0-4-0----------------------------------
Пока за полеты не просят плату.

1|------5-4-0--3-3-3-2-----1-1-1-0---------------------
2|---------------------3-----------1---6-5-1--5-4-1----
3|-2-5-------------------------------------------------

  G#
Проигрыш:                      Cm
1|-----------------------------------------------------
2|-------------1-------------4-1-----------------------
3|-1----0-1-3----3-1-0-1-0-1---------------------------
         Gm        F                  E
1|-----------------------3---5----3-1-0--1-0-0--1-0-0--
2|---1-4-3-------------1---1---------------------------
3|-0--------3-0----------------------------------------
4|---------------4-3-----------------------------------

+
    Am
 Медленно
1|---0---0-0-0-----------------------------------------
2|-------------4---1-------1-----0-1-3-1---------------
3|---------------2-----------------------2-------------
4|-2--------------------2------2-----------------------
    Cm      G      Am
1|-----------------------------------------------------
2|-----------------------------------------------------
3|---0--0-0--0-0-0-0-2---------------------------------
4|-2---------------------------------------------------
  Am                             Cm     G       Am
1|-----------------------------------------------------
2|-1-1--1-0--------------------------------------------
3|-----------1-2--2-2--2-4-2---------------------------
4|---------------------------2--2-1----1-0----0-0------
5|------------------------------------------------3----
6|-----------------------------------------------------

    **************************
    Эти табы играются во время этого припева
    1|------------------------------------------ |
    2|---3-6--3---------1-5--1------------------ | x2
    3|-3--------3-----2--------2---------------- |

   B            Am
    Но все же ночною порой
   B             Am
    Мне снится конвой
          E
    И солдаты!
    **************************
    
  Am
3|--5-2--(повтор этих двух нот)-------------
Оставь, не жалей ни о чем
Летай, пока горячо
  Cm      G              Am
2|--4-1-4-1---4-0-4-0-----------------------
Пока за полеты не просят плату.

Конец:
  Am        E        G        Cm
1|------------------------------------------
2|-5-5-5-5--3-3-3-3--3-3-3-3--4-4-4-4-------
3|------------------------------------------
   Am       E         G           E
1|------------------------------------------
2|-5-5-5-5--3-3-3-3---0---1-0---1-0---------
3|----------------------2-----2-------------
           Am
1|------------------------------------------
2|------------------------------------------
3|-----5-4-2--------------------------------
4|-2-1--------------------------------------

Если Вы обнаружили ошибку, просьба сообщить
Вы можете пропустить чтение записи и оставить комментарий. Размещение ссылок запрещено.

Оставить комментарий

Лимит времени истёк. Пожалуйста, перезагрузите CAPTCHA.