Привет, гитарист!

Держи подарок от сайта Muzykantam.net - мини-курс по гитаре

Забрать курс!

Агата Кристи - Сказочная тайга, аккорды

Просмотров: 1217
1 Звезда2 Звезды3 Звезды4 Звезды5 Звезд
Загрузка...
Слушать онлайн: "Сказочная тайга"
Бой: V_V^_^V^
Выбрать тональность
Вступление
Dm        Gm      A         F    
|-----------5-8-6-------5-------6-5----
|-----------------------------5--------
|-----7---7-----------------6----------
|--------------------------------------
|--------------------------------------
|--------------------------------------
    Dm        G     A     Dm
|---------5-8-7-----9-----10---------
|------------------------------------
|---7---7----------------------------
|------------------------------------
|------------------------------------
|------------------------------------

|----5-5--------------- 
|--------8-8-6-6-5-5--- 
|---------------------- 
|---------------------- 
|---------------------- 
|---------------------- 
  
Dm               E7
Когда я на почте служил ямщиком,
A                Dm
Ко мне постучался косматый геолог
B                Dm
И глядя на карту на белой стене
E7             A
Он усмехнулся мне.
|----5-5--------------- 
|--------8-8-6-6-5-5--- 
|---------------------- 
|---------------------- 
|---------------------- 
|---------------------- 

Dm                   E7
Он рассказал, как плачет тайга,
Gm          A
Без мужика она одинока.
Dm              E7
Нету на почте у них ямщика,
Gm
Значит нам туда дорога,
A
Значит нам туда дорога.

    ------
    Припев
    Dm               Gm
    Облака в небо спрятались,
    A             F5-
    Звезды пьяные смотрят вниз
    Dm          G
    И в дебри сказочной тайги
    A
    Падают они.
    ------

Проигрыш
Dm Gm A F Dm G A Dm 

Dm                 E7
Черные сказки белой зимы
A                       Dm
На ночь поют нам большие деревья
B                 Dm
Черные сказки про розовый снег
E7             A
Розовый снег даже во сне
Dm                   E7
А ночью по лесу идет Сатана
Gm          A
И собирает свежие души
Dm              E7
Новую кровь получила зима
Gm
И тебя она получит
A
И тебя она получит

    ------
    Припев
    ------
Аккорды:
F5-
e|-Х-|-Х-|-Х-|
H|-Х-|-Х-|-Х-|             
G|-Х-|-Х-|-Х-|       
D|-Х-|-Х-|-Х-|             
A|---|---|-3-|             
E|-1-|---|-3-|             
Если Вы обнаружили ошибку, просьба сообщить
Вы можете пропустить чтение записи и оставить комментарий. Размещение ссылок запрещено.

Оставить комментарий

Лимит времени истёк. Пожалуйста, перезагрузите CAPTCHA.