Привет, гитарист!

Держи подарок от сайта Muzykantam.net - мини-курс по гитаре

Забрать курс!

Агата Кристи - Сирота, аккорды

Просмотров: 1258
1 Звезда2 Звезды3 Звезды4 Звезды5 Звезд
Загрузка...
Бой: V_V^_^V^
Выбрать тональность
Вступление 2 раза:
                  Dm
1|------------0------------------------
2|--------3-2--------------------------
3|------2-------3-2--------------------
4|--2-3--------------------------------
5|-------------------------------------
6|-------------------------------------
                 Gm
1|------------0------------------------
2|--------3-2--------------------------
3|------2-------2-3--------------------
4|--2-3--------------------------------
5|-------------------------------------
6|-------------------------------------
                   A
1|---------3-2-5-1-0-------------------
2|------3------------------------------
3|---0-3-------------------------------
4|-------------------------------------
5|-------------------------------------
6|-------------------------------------
                   A
1|---------3---------------------------
2|------3----3-4-3-2-------------------
3|---0-3-------------------------------
4|-------------------------------------
5|-------------------------------------
6|-------------------------------------

           Dm
Хуже казни нет
             Gm
Жить слишком долго
                  A
Я ненави ненави нави
         Dm
ненавижу ждать
            Dm
Я смотрю на жизнь
        Gm
Глазами волка
Я не буду ду
          A           Dm
Я не буду медленно умирать

Вздыхала ночь она была
Дразнила смерть она ждала
Играла жизнь, она ушла
И не вернется никогда
Я сирота, я сирота.
Моя закончилась война
Моя последняя игра
Я сирота, я сирота.

Хуже казни нет
Жить слишком долго.
Я ненави ненави нави
Ненавижу ждать.
Я смотрю на жизнь
Глазами волка.
Я не буду ду
Я не буду медленно умирать.

Я не умею умирать,
Но жить я тоже не могу.
Не знаю в небо или в ад
Иду ду ду и упаду.
Я сирота, я сирота.
Моя закончилась война,
Моя последняя игра
Я сирота, я сирота.

Ду ду ду ду ду
Ду ду ду ду ду
Ду ду ду ду ду
Ду ду ду ду ду
Ду ду ду ду ду

Я сирота, я сирота.
Моя закончилась война
Моя последняя игра.
Я сирота, я сирота.
Если Вы обнаружили ошибку, просьба сообщить
Вы можете пропустить чтение записи и оставить комментарий. Размещение ссылок запрещено.

Оставить комментарий

Лимит времени истёк. Пожалуйста, перезагрузите CAPTCHA.