Привет, гитарист!

Держи подарок от сайта Muzykantam.net - мини-курс по гитаре

Забрать курс!

Агата Кристи - Shocking you, аккорды

Просмотров: 724
1 Звезда2 Звезды3 Звезды4 Звезды5 Звезд
Загрузка...
Бой: V_V^V^V^
Выбрать тональность
Вступление:
Em  C  H7  Em

    ==========
    ПРИПЕВ:
    
    Em
    We're shocking you until you turn to blue
    Am
    We're shocking you see what we're gonna do
    H7
    Look out it's like electricity
    C
    don't think it's fantasy

    Em
    We're shocking you until you turn to blue
    Am
    We're shocking you see what we're gonna do
    H7
    Look out it's like electricity
    C
    don't think it's fantasy
    ==========
    
    Em
The sound of guitar is sparkling lightning
    Am
The sound of bass like a hurricane
H7                                   Em
Join the crowd and we'll be shocking you

Em
Rhythm of drums like a waving thunder
Am
goddess of music brings a magic voice
H7                                   Em
Join the crowd and we'll be shocking you

    ======
    ПРИПЕВ..
    ======
    
  Em
1|-7-7-7-7-3-3-3-3-0-0-0-0-----------------
2|-------------------------0-0-0-----------
3|-----------------------------------------
   C
1|-3-3-3-3---------------------------------
2|----------4-4-4-4-1-1-1-1----------------
3|---------------------------0-0-0---------
  H7
1|-2-2-2-2---------------------------------
2|---------4-4-4-4-------------------------
3|------------------2-2-2-2----------------
4|--------------------------4-4-4----------
  Em

Проигрыш 2 раза:
Em  Am  H7  C


The wave of currency knocks you down
Like high tension is that magic sound
Join the crowd and we'll be shocking you

The sound of guitar is sparkling lightning
The sound of bass like a hurricane
Join the crowd and we'll be shocking you

    ======
    ПРИПЕВ..
    ======

Em
We're shocking you
Am                 H7  Em
We're shocking you
Em
We're shocking you...
Если Вы обнаружили ошибку, просьба сообщить
Вы можете пропустить чтение записи и оставить комментарий. Размещение ссылок запрещено.

Оставить комментарий

Лимит времени истёк. Пожалуйста, перезагрузите CAPTCHA.