Привет, гитарист!

Держи подарок от сайта Muzykantam.net - мини-курс по гитаре

Забрать курс!

Агата Кристи - Садо-мазо, аккорды

Просмотров: 966
1 Звезда2 Звезды3 Звезды4 Звезды5 Звезд
Загрузка...
Бой: VvVv
Выбрать тональность
  Em
  Плюнула огнем и зашипела, Догорая черная све
1|----------------------------
2|----------------------------
3|---------0-----0------------
4|-2-----2---2----------------

  Am
  ча
1|----------------------------
2|---------1-----1------------
3|-2-----2---2----------------
4|----------------------------

  Em
  У тебя лицо невинной жертвы. И немного есть от пала
1|----------------------------
2|----------------------------
3|---------0-----0------------
4|-2-----2---2----------------

  Am
  ча
1|----------------------------
2|---------1-----1------------
3|-2-----2---2----------------
4|----------------------------

    ==========
    ПРИПЕВ:
    
          Em
    Такая типа садо-мазо
    D
    Просто садо-мазо
    C
    Вся ты садо-мазо
    D6     H
    Просто садо-мазо
    Em
    Даже садо-мазо
    D
    Сердце садо-мазо
    C
    Бьется садо-мазо
    D6   H    H
    Типа садо-мазо
    ==========
    
Ты куда летишь, печальный призрак
Вот он я, готический твой принц
Ты выглядишь как труп своей собачки,
Которую насиловал фашист

    ======
    ПРИПЕВ..
    ======

Проигрыш 2 раза:
   Em
1|-0-3-0-3-0-3-0-3-7-5--3-----
2|----------------------------
                     Am
1|-0-3-0-3-0-3-0-3-7-5--------
2|----------------------------

      Em   D      C    D6   H
Какое небо звезды небо звезды
Em   D      C       D6   H
Даже сердце бьется, бьется…

    ======
    ПРИПЕВ..
    ======
Если Вы обнаружили ошибку, просьба сообщить
Вы можете пропустить чтение записи и оставить комментарий. Размещение ссылок запрещено.

Оставить комментарий

Лимит времени истёк. Пожалуйста, перезагрузите CAPTCHA.