Привет, гитарист!

Держи подарок от сайта Muzykantam.net - мини-курс по гитаре

Забрать курс!

Агата Кристи - Как на войне, аккорды

Просмотров: 961
1 Звезда2 Звезды3 Звезды4 Звезды5 Звезд
Загрузка...
Слушать онлайн: "Как на войне"
Бой: V_V^_^V^
Выбрать тональность

Вступление:
   Am       G         C        E
e|-0----0---3-----3-1-0--------0-----
B|-1------1-0---------1--3-1-3-0--0-1
G|-2--2-----0---0-----0--------1-----
D|-2--------0---------2--------2-----
A|-0--------2---------3--------2-----
E|-0--------3---------0--------0-----

   Am       G       C       E
---0----0---3---3-1-0-------0-4-5-|
-0-1------1-0-------1-3-1-3-0-----|
---2--2-----0-0-----0-------1-----|
---2--------0-------2-------2-----|
---0--------2-------3-------2-----|
---0--------3-------0-------0-----|

Am       G       C          E    Am
Ляг отдохни и послушай, что я скажу
     G         C       E  Am
Я теpпел, но сегодня я ухожу
     G       C       E      Am
Я сказал успокойся и pот закpой
      G          C      E        Am
Вот и все, до свидания, чеpт с тобой

    ************************
    Припев:

           G            C
    Я на тебе как на войне
            E           Am
    Я на войне как на тебе,
           G            C
    Hо я устал, окончен бой,
             E           Am
    Беpу поpтвейн, иду домой
            G           C
    Окончен бой, зачах огонь
           E          Am
    И не осталось ничего,
           G              C        E     Am
    И мы живем, а нам с тобою повезло назло
    ************************

Боль, это боль как ее ты не назови
Это страх, там где страх место нет любви
Я сказал: "Успокойся и рот закрой"
Вот и все до свидания черт с тобой

    ********
    Припев..
    ********
Если Вы обнаружили ошибку, просьба сообщить
Вы можете пропустить чтение записи и оставить комментарий. Размещение ссылок запрещено.

Оставить комментарий

Лимит времени истёк. Пожалуйста, перезагрузите CAPTCHA.