Привет, гитарист!

Держи подарок от сайта Muzykantam.net - мини-курс по гитаре

Забрать курс!

Агата Кристи - Герои, аккорды

Просмотров: 638
1 Звезда2 Звезды3 Звезды4 Звезды5 Звезд
Загрузка...
Бой: V^V^
Выбрать тональность
Вступление 2 раза:

(Не быстро)
    Am
1|-----------------------------------------
2|----5---5---5---5------------------------
3|--5---4---2---4--------------------------

1|-----------------------------------------
2|----5---5---5---5------------------------
3|--5---4---2---1--------------------------

Начало:

Несколько раз Am

*******************************************
Дальше ОСНОВНЫЕ табы, выделены звездочками (быстро):
  Am
1|-----------------------------------------
2|-----------------------------------------
3|-2-1-2-4-5-4-2-1-2-1-2-4-5---4----------- 2х
  G
1|-----------------------------------------
2|-----------------------------------------
3|---4---4-7---4---------------------------
4|-5---5-----------------------------------
   C
1|----------0-------------------------------
2|-----------------------------------------
3|-2-5-2-5-----5---------------------------
4|-----------------------------------------
   G
1|-----------------------------------------
2|-----------------------------------------
3|---4---4-7---4---------------------------
4|-5---5-----------------------------------
   C
1|-----------------------------------------
2|---------5-4--5-4------------------------
3|-2-5-2-5---------------------------------
4|-----------------------------------------

+

  Am
1|-----------------------------------------
2|----------10---------10------------------
3|-9--9-8-9------9-8-9-----9-8-------------
  Am
1|-----------------------------------------
2|----------10---------10------------------
3|-9--9-8-9------9-8-9-----9-8-------------
  G
1|-----------------------------------------
2|----------9----------9-------------------
3|-9--9-8-9------9-8-9-----9-8-------------
  E
1|------------------------------7----------
2|------------------9-----10---------------
3|-9--9-8-9-8-9-8-9----9-----9-------------
*******************************************

  Am     Am7     Dm         E7
Герои, герои, кругом одни герои
  Am     Am7     Dm         E7
Герои, герои, кругом одни герои

(медленно)
  Am
1|-----------------------------------------
2|-10--9--8--7----5--3--1-------------------
3|------------------------4----------------

********************
опять ОСНОВНЫЕ табы..
********************

Герои, герои, кругом одни герои
Герои, герои, кругом одни герои

(медленно)
  Am
1|-----------------------------------------
2|-10--9--8--7----5--3--1-------------------
3|------------------------4----------------


(Не быстро)
  Am
1|---------------------------------------- |
2|----5---5---5---5----------------------- |
3|--5---4---2---4------------------------- |
  Am                                       | Кусок
1|---------------------------------------- |
2|----5---5---5---5----------------------- |
3|--5---4---2---1------------------------- |

Дальше 2 раза играется этот Кусок,
но в это время на второй гитаре играется следующее:

  Am
1|-----------------------------------------
2|-----------------------------------------
3|-2-1-2-4-5-4-2-1-------------------------

Далее такой интересный конец этого Куска:
  Am
1|-------------------------5---------------
2|----5---5---5-------5------5-6-3----6-5--
3|--5---4---2---4-5-6---------------4------

Герои, герои, кругом одни герои
Герои, герои, кругом одни герои

(медленно)
  Am
1|-----------------------------------------
2|-10--9--8--7----5--3--1-------------------
3|------------------------4----------------

Конец (не быстро):
1|-----------------------------------------
2|---3-5-6---------------------------------
3|-2--------5--4-2-------------------------
Если Вы обнаружили ошибку, просьба сообщить
Вы можете пропустить чтение записи и оставить комментарий. Размещение ссылок запрещено.

Оставить комментарий

Лимит времени истёк. Пожалуйста, перезагрузите CAPTCHA.