Привет, гитарист!

Держи подарок от сайта Muzykantam.net - мини-курс по гитаре

Забрать курс!

Агата Кристи - Днем и ночью, аккорды

Просмотров: 515
1 Звезда2 Звезды3 Звезды4 Звезды5 Звезд
Загрузка...
Бой: V_V^_^V^
Выбрать тональность
Вступление 2 раза:

              Dm
1|----10---------------------------
2|-10----10-6-5-------------------------
3|----------------------------------
              D
1|----10---------------------------
2|-10----10-6-7-------------------------
3|----------------------------------
               Gm
1|----13-10---------------------------
2|-10-------10-9------------------------
3|----------------------------------
           Dm
1|---8-7-6-5----------------------------
2|-9---------------------------
3|----------------------------------

Dm       D
Надо еще надо чуть-чуть
Dm         D
Надо найти правильный путь
Dm               D
День кусает ночь ночь сосет меня
Dm              D
Вот она моя борьба

    ==========
    ПРИПЕВ:
    
    Dm
    Днем и ночью днем и ночью
    D7
    Не могу реально кончить
    B           Gm        Dm   A7
    Ты хитра но я не расколюсь
    Dm
    Только нет не этой ночью
    D7
    Всё хорош короче я
      B          Gm
    Пойду и застрелюсь ты хочешь
    ==========
    
Надо поспать надо уснуть
Надо найти правильный путь
Где поднажать что повернуть
Надо найти правильный путь

Проигрыш:
Dm  D7  B  Gm  Dm  A7
Dm  D7  B  Gm  Dm  A7

    ==========
    Днем и ночью днем и ночью
    Не могу реально кончить
    Ты хитра но я не расколюсь
    Только нет не этой ночью
    Всё хорош короче я
    Пойду и застрелюсь ты кончишь

    Днем и ночью днем и ночью
    Не могу конкретно кончить
    Ты хитра но я не расколюсь
    Только нет не этой ночью
    Всё хорош короче я
    Пойду и застрелюсь ты кончишь
    ==========
    
Окончание аналогично вступлению..
Если Вы обнаружили ошибку, просьба сообщить
Вы можете пропустить чтение записи и оставить комментарий. Размещение ссылок запрещено.

Оставить комментарий

Лимит времени истёк. Пожалуйста, перезагрузите CAPTCHA.