Привет, гитарист!

Держи подарок от сайта Muzykantam.net - мини-курс по гитаре

Забрать курс!

Агата Кристи - Айлавью, аккорды

Просмотров: 128
1 Звезда2 Звезды3 Звезды4 Звезды5 Звезд
Загрузка...
Бой: V_V^_^V^ (бодро)
Выбрать тональность
Проигрыш:
  Am       C
1|-------------------------------
2|-0---0---0-0---0---------------
3|---2---2-----2---2-------------
  E7
1|-------------------------------
2|-0---0---0-0---0---------------
3|---2---2-----2---2-------------
  Am       C
1|-------------------------------
2|-3-1-3-1-3-3-1-3-1-------------
3|-------------------------------
   E7
1|-0---0---0-0---0---------------
2|---3---3-----3---3-------------
3|-------------------------------
   Am      C
1|-------------------------------
2|-3-1-0---3-3-1-0---------------
3|-------2---------2-------------
   E7
1|-0--------0-0------------------
2|---3-0--1-----3-0-1------------
3|-------------------------------
   Am      C
1|-------------------------------
2|-3-1-0---3-3-1-0---------------
3|-------2---------2-------------
   E7
1|-------------------------------
2|-0h1p0h1p0... и далее несколько раз
                нажимаете и отпускаете первый лад

Am      C         E7
Знамена нашей армии
Еще дрожат за горизонтом.
Но те, кто видит впереди,
На кожу ловит алый отблеск.

Знамена серые любви
Пока над нами вместо неба,
Но те, кто видит впереди,
Смеются над ее победой.

    ==========
    ПРИПЕВ:
      Am         C             E7
    Беги-беги, пока я не вижу, прячься-прячься,
          Am        C               E7
    Но я узнаю-знаю всех вас, узнаю и найду.
      Am         C              E7
    Дыши-дыши, пока я не слышу, кайся-кайся,
            Am          C            E7
    Но не надейся, я приду, золотая. I Love You.
    ==========

Проигрыш..

Ты не заметишь зтот миг,
лишь только завтра поутру,
Открой глаза и посмотри:
знамена реют на ветру.

    ======
    ПРИПЕВ..
    ======

(повышение на пол тона)

    ==========
    ПРИПЕВ:
      Bm         C#            F7
    Беги-беги, пока я не вижу, прячься-прячься,
          Bm        C#              F7
    Но я узнаю-знаю всех вас, узнаю и найду.
      Bm         C#             F7
    Дыши-дыши, пока я не слышу, кайся-кайся,
            Bm          C#           F7
    Но не надейся, я приду, золотая. I Love You.
    ==========

Проигрыш 2 раза:
  Bm       C#
1|-------------------------------
2|-1---1---1-1---1---------------
3|---3---3-----3---3-------------
  F7
1|-------------------------------
2|-1---1---1-1---1---------------
3|---3---3-----3---3-------------
  Bm       C#
1|-------------------------------
2|-4-2-4-2-4-4-2-4-2-------------
3|-------------------------------
   F7
1|-1---1---1-1---1---------------
2|---4---4-----4---4-------------
3|-------------------------------
   Bm      C#
1|-------------------------------
2|-4-2-1---4-4-2-1---------------
3|-------3---------3-------------
   F7
1|-1--------1-1------------------
2|---4-1--2-----4-1-2------------
3|-------------------------------
   Bm      C#
1|-------------------------------
2|-4-2-1---4-4-2-1---------------
3|-------3---------3-------------
   F7
1|-------------------------------
2|-1h2p1h2p1... и далее несколько раз
                нажимаете и отпускаете второй лад,
                при этом держа палец еще и на первом ладу
Если Вы обнаружили ошибку, просьба сообщить
Вы можете пропустить чтение записи и оставить комментарий. Размещение ссылок запрещено.

Оставить комментарий

Лимит времени истёк. Пожалуйста, перезагрузите CAPTCHA.