Привет, гитарист!

Держи подарок от сайта Muzykantam.net - мини-курс по гитаре

Забрать курс!

Агата Кристи - Абордаж, аккорды

Просмотров: 599
1 Звезда2 Звезды3 Звезды4 Звезды5 Звезд
Загрузка...
Бой: VvVv (или V^V^)
Выбрать тональность
Am
Браво, маркиза, что за луна?
Ленива капризна и холодна.

       F           F
1|-3-4-5-------3-4-5--------------
2|-------6--6--------6--6---------
       Am             Am
1|-3-4-5--0--0----3-4-5--0--0-----
2|--------------------------------

Музыка Штрауса еле слышна,
                              G
Возьмите бокал, я налью вам вина.

       F           F
1|-3-4-5-------3-4-5--------------
2|-------6--6--------6--6---------
       Am             Am
1|-3-4-5--0--0----3-4-5--0--0-----
2|--------------------------------

       F           F
1|-3-4-5-------3-4-5--------------
2|-------6--6--------6--6---------
       Am          G
1|-3-4-5--5--5--5--3--------------
2|--------5--5--5--3--------------

    ==========
     Am
    Трах-трах, тибетибедах. Трах-трах, тибетибедах.
    Трах-трах, тибетибедах. Трах-трах, тибетибедах.
     Dm
    Трах-трах, тибетибедах. Трах-трах, тибетибедах.
     H
    Трах-трах, тибетибедах. Трах-трах.
     Am
    Трах-трах, тибетибедах. Трах-трах, тибетибедах.
    Трах-трах, тибетибедах. Трах-трах, тибетибедах.
     Dm
    Трах-трах, тибетибедах. Трах-трах, тибетибедах.
     H
    Трах-трах, тибетибедах. Трах-тибедах.
    ==========


Я люблю запах ваших духов,
Бальные танцы вино и любовь.
Силь ву пле, мадам, мой экипаж -
Там я возьму вас на абордаж.

       F           F
1|-3-4-5-------3-4-5--------------
2|-------6--6--------6--6---------
       Am             Am
1|-3-4-5--0--0----3-4-5--0--0-----
2|--------------------------------

       F           F
1|-3-4-5-------3-4-5--------------
2|-------6--6--------6--6---------
       Am          G
1|-3-4-5--5--5--5--3--------------
2|--------5--5--5--3--------------

    ======
    ПРИПЕВ..
    ======

    Am
1|--555555555555------------------
   Am
1|-4h555555555555-----------------
   Dm
1|-7h888888888888-----------------
   E
1|-6h7777777777777777-------------

   Am
1|-5-5-8p7-5--7-------------------

1|-5-5-8p7-5--7-------------------

1|-5-5-8p7-5--7-------------------

1|-5-5-8p7-5--7-------------------

   Dm
1|-5-5-8p7-5--7-------------------
                  E
1|-5-5-8p7-5--8-7-777777777777777-



       F           F
1|-3-4-5-------3-4-5--------------
2|-------6--6--------6--6---------
       Am             Am
1|-3-4-5--0--0----3-4-5--0--0-----
2|--------------------------------

       F           F
1|-3-4-5-------3-4-5--------------
2|-------6--6--------6--6---------
       Am          G
1|-3-4-5--5--5--5--3--------------
2|--------5--5--5--3--------------

    Am
1|--000000000000-0-0--------------
    Am
1|--000000000000-0-0--------------
    Dm
1|--111111111111-1-1--------------
    E
1|--000000000000-0-0--------------

    Am
3|--2-2-5p4-2--4------------------

3|--2-2-5p4-2--4------------------

3|--2-2-5p4-2--4------------------

3|--2-2-5p4-2--4------------------
    Dm
3|--2-2-5p4-2--4------------------

3|--2-2-5p4-2--4------------------
    E
3|--4-4-4-4-4-4-2-----------------

3|--4-4-4-4-4-4-2-----------------

    ======
    ПРИПЕВ..
    ======
Если Вы обнаружили ошибку, просьба сообщить
Вы можете пропустить чтение записи и оставить комментарий. Размещение ссылок запрещено.

Оставить комментарий

Лимит времени истёк. Пожалуйста, перезагрузите CAPTCHA.